ISO-10303-21;
HEADER;
FILE_DESCRIPTION (( 'STEP AP214' ),
    '1' );
FILE_NAME ('Magnetring_MR20xx.STEP',
    '2017-04-27T07:41:23',
    ( '' ),
    ( '' ),
    'SwSTEP 2.0',
    'SolidWorks 2016',
    '' );
FILE_SCHEMA (( 'AUTOMOTIVE_DESIGN' ));
ENDSEC;

DATA;
#1 = DIRECTION ( 'NONE',  ( -1.000000000000000000, 0.0000000000000000000, 0.0000000000000000000 ) ) ;
#2 = VECTOR ( 'NONE', #32, 1000.000000000000000 ) ;
#3 = CIRCLE ( 'NONE', #245, 7.349999999999999600 ) ;
#4 = DIRECTION ( 'NONE',  ( 1.000000000000000000, 0.0000000000000000000, 0.0000000000000000000 ) ) ;
#5 =( NAMED_UNIT ( * ) PLANE_ANGLE_UNIT ( ) SI_UNIT ( $, .RADIAN. ) );
#6 = SURFACE_SIDE_STYLE ('',( #199 ) ) ;
#7 = AXIS2_PLACEMENT_3D ( 'NONE', #93, #150, #4 ) ;
#8 = EDGE_CURVE ( 'NONE', #312, #44, #191, .T. ) ;
#9 = DIRECTION ( 'NONE',  ( 0.0000000000000000000, 0.0000000000000000000, 1.000000000000000000 ) ) ;
#10 = DIRECTION ( 'NONE',  ( 1.000000000000000000, 0.0000000000000000000, 0.0000000000000000000 ) ) ;
#11 = SURFACE_STYLE_USAGE ( .BOTH. , #227 ) ;
#12 = CYLINDRICAL_SURFACE ( 'NONE', #156, 7.349999999999999600 ) ;
#13 = EDGE_CURVE ( 'NONE', #242, #111, #3, .T. ) ;
#14 = ORIENTED_EDGE ( 'NONE', *, *, #13, .T. ) ;
#15 = DIRECTION ( 'NONE',  ( 1.000000000000000000, 0.0000000000000000000, 0.0000000000000000000 ) ) ;
#16 = CARTESIAN_POINT ( 'NONE',  ( 0.0000000000000000000, 0.0000000000000000000, 4.099999999999999600 ) ) ;
#17 = LINE ( 'NONE', #264, #255 ) ;
#18 = ORIENTED_EDGE ( 'NONE', *, *, #8, .T. ) ;
#19 = AXIS2_PLACEMENT_3D ( 'NONE', #146, #121, #311 ) ;
#20 = ORIENTED_EDGE ( 'NONE', *, *, #161, .F. ) ;
#21 = EDGE_CURVE ( 'NONE', #259, #68, #289, .T. ) ;
#22 = CARTESIAN_POINT ( 'NONE',  ( 0.0000000000000000000, 0.0000000000000000000, 3.900000000000005700 ) ) ;
#23 = CARTESIAN_POINT ( 'NONE',  ( 9.675000000000002500, 1.184845778175064500E-015, 4.099999999999999600 ) ) ;
#24 = SHAPE_DEFINITION_REPRESENTATION ( #268, #118 ) ;
#25 = ORIENTED_EDGE ( 'NONE', *, *, #231, .F. ) ;
#26 = VERTEX_POINT ( 'NONE', #163 ) ;
#27 = CARTESIAN_POINT ( 'NONE',  ( -7.349999999999999600, 0.0000000000000000000, 4.099999999999999600 ) ) ;
#28 = EDGE_CURVE ( 'NONE', #224, #304, #124, .T. ) ;
#29 = CARTESIAN_POINT ( 'NONE',  ( 0.0000000000000000000, 0.0000000000000000000, 4.099999999999999600 ) ) ;
#30 = CARTESIAN_POINT ( 'NONE',  ( 0.0000000000000000000, 0.0000000000000000000, 4.099999999999999600 ) ) ;
#31 =( NAMED_UNIT ( * ) SI_UNIT ( $, .STERADIAN. ) SOLID_ANGLE_UNIT ( ) );
#32 = DIRECTION ( 'NONE',  ( -0.0000000000000000000, -0.0000000000000000000, -1.000000000000000000 ) ) ;
#33 = CIRCLE ( 'NONE', #223, 9.674999999999997200 ) ;
#34 = VECTOR ( 'NONE', #122, 1000.000000000000100 ) ;
#35 = LINE ( 'NONE', #23, #34 ) ;
#36 = AXIS2_PLACEMENT_3D ( 'NONE', #244, #218, #267 ) ;
#37 = ORIENTED_EDGE ( 'NONE', *, *, #76, .T. ) ;
#38 = DIRECTION ( 'NONE',  ( 0.0000000000000000000, 0.0000000000000000000, -1.000000000000000000 ) ) ;
#39 = ADVANCED_FACE ( 'NONE', ( #277 ), #176, .T. ) ;
#40 = CIRCLE ( 'NONE', #115, 7.349999999999999600 ) ;
#41 = AXIS2_PLACEMENT_3D ( 'NONE', #136, #190, #92 ) ;
#42 = ADVANCED_FACE ( 'NONE', ( #153 ), #283, .T. ) ;
#43 = DIRECTION ( 'NONE',  ( -0.0000000000000000000, -0.0000000000000000000, -1.000000000000000000 ) ) ;
#44 = VERTEX_POINT ( 'NONE', #114 ) ;
#45 = CARTESIAN_POINT ( 'NONE',  ( 0.0000000000000000000, 0.0000000000000000000, 0.0000000000000000000 ) ) ;
#46 = CARTESIAN_POINT ( 'NONE',  ( 0.0000000000000000000, 0.0000000000000000000, 0.0000000000000000000 ) ) ;
#47 = PRODUCT ( 'Magnetring_MR20xx', 'Magnetring_MR20xx', '', ( #60 ) ) ;
#48 = CARTESIAN_POINT ( 'NONE',  ( 9.875000000000000000, 1.209338714158011400E-015, 4.099999999999999600 ) ) ;
#49 = FACE_OUTER_BOUND ( 'NONE', #230, .T. ) ;
#50 = DIRECTION ( 'NONE',  ( 1.000000000000000000, 0.0000000000000000000, 0.0000000000000000000 ) ) ;
#51 = ORIENTED_EDGE ( 'NONE', *, *, #180, .T. ) ;
#52 = ORIENTED_EDGE ( 'NONE', *, *, #286, .T. ) ;
#53 = DIRECTION ( 'NONE',  ( 1.000000000000000000, 0.0000000000000000000, 0.0000000000000000000 ) ) ;
#54 = AXIS2_PLACEMENT_3D ( 'NONE', #22, #288, #292 ) ;
#55 = EDGE_CURVE ( 'NONE', #263, #224, #305, .T. ) ;
#56 = DIRECTION ( 'NONE',  ( -0.0000000000000000000, -0.0000000000000000000, -1.000000000000000000 ) ) ;
#57 = CIRCLE ( 'NONE', #160, 9.875000000000000000 ) ;
#58 = APPLICATION_PROTOCOL_DEFINITION ( 'draft international standard', 'automotive_design', 1998, #182 ) ;
#59 = VERTEX_POINT ( 'NONE', #72 ) ;
#60 = PRODUCT_CONTEXT ( 'NONE', #182, 'mechanical' ) ;
#61 = LINE ( 'NONE', #48, #251 ) ;
#62 = LINE ( 'NONE', #309, #90 ) ;
#63 = ORIENTED_EDGE ( 'NONE', *, *, #273, .T. ) ;
#64 = AXIS2_PLACEMENT_3D ( 'NONE', #168, #188, #15 ) ;
#65 = COLOUR_RGB ( '',0.5019607843137254800, 0.5019607843137254800, 0.5019607843137254800 ) ;
#66 = DIRECTION ( 'NONE',  ( 0.0000000000000000000, 0.0000000000000000000, -1.000000000000000000 ) ) ;
#67 = FACE_OUTER_BOUND ( 'NONE', #71, .T. ) ;
#68 = VERTEX_POINT ( 'NONE', #278 ) ;
#69 = ORIENTED_EDGE ( 'NONE', *, *, #194, .F. ) ;
#70 = AXIS2_PLACEMENT_3D ( 'NONE', #240, #170, #269 ) ;
#71 = EDGE_LOOP ( 'NONE', ( #131, #74, #101, #260 ) ) ;
#72 = CARTESIAN_POINT ( 'NONE',  ( 9.674999999999997200, 0.0000000000000000000, 0.0000000000000000000 ) ) ;
#73 = ORIENTED_EDGE ( 'NONE', *, *, #21, .F. ) ;
#74 = ORIENTED_EDGE ( 'NONE', *, *, #21, .T. ) ;
#75 = PLANE ( 'NONE',  #36 ) ;
#76 = EDGE_CURVE ( 'NONE', #59, #304, #62, .T. ) ;
#77 =( NAMED_UNIT ( * ) PLANE_ANGLE_UNIT ( ) SI_UNIT ( $, .RADIAN. ) );
#78 = DIRECTION ( 'NONE',  ( -0.0000000000000000000, -0.0000000000000000000, 1.000000000000000000 ) ) ;
#79 = ORIENTED_EDGE ( 'NONE', *, *, #107, .F. ) ;
#80 = CARTESIAN_POINT ( 'NONE',  ( 7.349999999999999600, 9.001153973733045600E-016, 4.099999999999999600 ) ) ;
#81 = FACE_OUTER_BOUND ( 'NONE', #192, .T. ) ;
#82 = APPLICATION_CONTEXT ( 'automotive_design' ) ;
#83 = ORIENTED_EDGE ( 'NONE', *, *, #231, .T. ) ;
#84 = AXIS2_PLACEMENT_3D ( 'NONE', #29, #202, #254 ) ;
#85 = PRESENTATION_STYLE_ASSIGNMENT (( #11 ) ) ;
#86 = PRODUCT_DEFINITION_CONTEXT ( 'detailed design', #82, 'design' ) ;
#87 = EDGE_LOOP ( 'NONE', ( #252, #211, #203, #20 ) ) ;
#88 = ADVANCED_FACE ( 'NONE', ( #229, #95 ), #75, .T. ) ;
#89 = COLOUR_RGB ( '',0.5019607843137254800, 0.5019607843137254800, 0.5019607843137254800 ) ;
#90 = VECTOR ( 'NONE', #210, 1000.000000000000000 ) ;
#91 = ORIENTED_EDGE ( 'NONE', *, *, #208, .F. ) ;
#92 = DIRECTION ( 'NONE',  ( 1.000000000000000000, 0.0000000000000000000, 0.0000000000000000000 ) ) ;
#93 = CARTESIAN_POINT ( 'NONE',  ( 0.0000000000000000000, 0.0000000000000000000, 0.0000000000000000000 ) ) ;
#94 = CYLINDRICAL_SURFACE ( 'NONE', #265, 7.349999999999999600 ) ;
#95 = FACE_BOUND ( 'NONE', #134, .T. ) ;
#96 = DIRECTION ( 'NONE',  ( -0.0000000000000000000, -0.0000000000000000000, -1.000000000000000000 ) ) ;
#97 = DIRECTION ( 'NONE',  ( -0.0000000000000000000, -0.0000000000000000000, -1.000000000000000000 ) ) ;
#98 = CIRCLE ( 'NONE', #54, 9.875000000000000000 ) ;
#99 = ORIENTED_EDGE ( 'NONE', *, *, #180, .F. ) ;
#100 = DIRECTION ( 'NONE',  ( -1.000000000000000000, 0.0000000000000000000, 0.0000000000000000000 ) ) ;
#101 = ORIENTED_EDGE ( 'NONE', *, *, #161, .T. ) ;
#102 = CARTESIAN_POINT ( 'NONE',  ( 0.0000000000000000000, 0.0000000000000000000, 0.2000000000000005100 ) ) ;
#103 = PRESENTATION_LAYER_ASSIGNMENT (  '', '', ( #143 ) ) ;
#104 =( NAMED_UNIT ( * ) SI_UNIT ( $, .STERADIAN. ) SOLID_ANGLE_UNIT ( ) );
#105 = CARTESIAN_POINT ( 'NONE',  ( 9.875000000000000000, 1.209338714158011400E-015, 0.2000000000000005100 ) ) ;
#106 = ORIENTED_EDGE ( 'NONE', *, *, #127, .T. ) ;
#107 = EDGE_CURVE ( 'NONE', #312, #259, #35, .T. ) ;
#108 = DIRECTION ( 'NONE',  ( -0.7071067811865505700, 8.659560562354969800E-017, 0.7071067811865444600 ) ) ;
#109 = DIRECTION ( 'NONE',  ( 1.000000000000000000, 0.0000000000000000000, 0.0000000000000000000 ) ) ;
#110 = ORIENTED_EDGE ( 'NONE', *, *, #28, .F. ) ;
#111 = VERTEX_POINT ( 'NONE', #175 ) ;
#112 = ADVANCED_FACE ( 'NONE', ( #171 ), #196, .T. ) ;
#113 = CONICAL_SURFACE ( 'NONE', #169, 9.875000000000000000, 0.7853981633974526100 ) ;
#114 = CARTESIAN_POINT ( 'NONE',  ( -9.675000000000002500, 0.0000000000000000000, 4.099999999999999600 ) ) ;
#115 = AXIS2_PLACEMENT_3D ( 'NONE', #243, #173, #217 ) ;
#116 = DIRECTION ( 'NONE',  ( -0.0000000000000000000, -0.0000000000000000000, -1.000000000000000000 ) ) ;
#117 = ADVANCED_FACE ( 'NONE', ( #232 ), #94, .F. ) ;
#118 = ADVANCED_BREP_SHAPE_REPRESENTATION ( 'Magnetring_MR20xx', ( #308, #274 ), #187 ) ;
#119 = FACE_OUTER_BOUND ( 'NONE', #149, .T. ) ;
#120 = EDGE_LOOP ( 'NONE', ( #51, #138 ) ) ;
#121 = DIRECTION ( 'NONE',  ( -0.0000000000000000000, -0.0000000000000000000, -1.000000000000000000 ) ) ;
#122 = DIRECTION ( 'NONE',  ( 0.7071067811865536800, 8.659560562355009300E-017, -0.7071067811865413600 ) ) ;
#123 = CARTESIAN_POINT ( 'NONE',  ( 0.0000000000000000000, 0.0000000000000000000, 4.099999999999999600 ) ) ;
#124 = CIRCLE ( 'NONE', #41, 9.875000000000000000 ) ;
#125 = CARTESIAN_POINT ( 'NONE',  ( 9.875000000000000000, 1.209338714158011400E-015, 3.900000000000005700 ) ) ;
#126 = AXIS2_PLACEMENT_3D ( 'NONE', #123, #96, #1 ) ;
#127 = EDGE_CURVE ( 'NONE', #263, #59, #310, .T. ) ;
#128 = DIRECTION ( 'NONE',  ( -0.7071067811865536800, 0.0000000000000000000, -0.7071067811865413600 ) ) ;
#129 =( LENGTH_UNIT ( ) NAMED_UNIT ( * ) SI_UNIT ( .MILLI., .METRE. ) );
#130 = CARTESIAN_POINT ( 'NONE',  ( 0.0000000000000000000, 0.0000000000000000000, 4.099999999999999600 ) ) ;
#131 = ORIENTED_EDGE ( 'NONE', *, *, #238, .F. ) ;
#132 = CARTESIAN_POINT ( 'NONE',  ( 0.0000000000000000000, 0.0000000000000000000, 0.2000000000000005100 ) ) ;
#133 = CIRCLE ( 'NONE', #272, 9.675000000000002500 ) ;
#134 = EDGE_LOOP ( 'NONE', ( #215, #213 ) ) ;
#135 = UNCERTAINTY_MEASURE_WITH_UNIT (LENGTH_MEASURE( 1.000000000000000100E-005 ), #294, 'distance_accuracy_value', 'NONE');
#136 = CARTESIAN_POINT ( 'NONE',  ( 0.0000000000000000000, 0.0000000000000000000, 0.2000000000000005100 ) ) ;
#137 = MECHANICAL_DESIGN_GEOMETRIC_PRESENTATION_REPRESENTATION (  '', ( #143 ), #257 ) ;
#138 = ORIENTED_EDGE ( 'NONE', *, *, #194, .T. ) ;
#139 = ORIENTED_EDGE ( 'NONE', *, *, #214, .F. ) ;
#140 = CARTESIAN_POINT ( 'NONE',  ( 0.0000000000000000000, 0.0000000000000000000, 4.099999999999999600 ) ) ;
#141 = ADVANCED_FACE ( 'NONE', ( #81, #200 ), #221, .F. ) ;
#142 = CIRCLE ( 'NONE', #84, 7.349999999999999600 ) ;
#143 = STYLED_ITEM ( 'NONE', ( #248 ), #308 ) ;
#144 = EDGE_CURVE ( 'NONE', #68, #259, #98, .T. ) ;
#145 = ADVANCED_FACE ( 'NONE', ( #67 ), #189, .T. ) ;
#146 = CARTESIAN_POINT ( 'NONE',  ( 0.0000000000000000000, 0.0000000000000000000, 4.099999999999999600 ) ) ;
#147 = CARTESIAN_POINT ( 'NONE',  ( 0.0000000000000000000, 0.0000000000000000000, 4.099999999999999600 ) ) ;
#148 = DIRECTION ( 'NONE',  ( -0.0000000000000000000, -0.0000000000000000000, -1.000000000000000000 ) ) ;
#149 = EDGE_LOOP ( 'NONE', ( #178, #139, #37, #110 ) ) ;
#150 = DIRECTION ( 'NONE',  ( 0.0000000000000000000, 0.0000000000000000000, 1.000000000000000000 ) ) ;
#151 = SURFACE_STYLE_USAGE ( .BOTH. , #6 ) ;
#152 = DIRECTION ( 'NONE',  ( 1.000000000000000000, 0.0000000000000000000, 0.0000000000000000000 ) ) ;
#153 = FACE_OUTER_BOUND ( 'NONE', #167, .T. ) ;
#154 = ORIENTED_EDGE ( 'NONE', *, *, #208, .T. ) ;
#155 = FILL_AREA_STYLE_COLOUR ( '', #65 ) ;
#156 = AXIS2_PLACEMENT_3D ( 'NONE', #130, #56, #100 ) ;
#157 = LINE ( 'NONE', #27, #166 ) ;
#158 = EDGE_LOOP ( 'NONE', ( #83, #18 ) ) ;
#159 = APPLICATION_PROTOCOL_DEFINITION ( 'draft international standard', 'automotive_design', 1998, #82 ) ;
#160 = AXIS2_PLACEMENT_3D ( 'NONE', #132, #226, #296 ) ;
#161 = EDGE_CURVE ( 'NONE', #68, #224, #17, .T. ) ;
#162 = PRODUCT_RELATED_PRODUCT_CATEGORY ( 'part', '', ( #47 ) ) ;
#163 = CARTESIAN_POINT ( 'NONE',  ( 7.349999999999999600, 9.001153973733045600E-016, 0.0000000000000000000 ) ) ;
#164 = LINE ( 'NONE', #80, #2 ) ;
#165 = ORIENTED_EDGE ( 'NONE', *, *, #214, .T. ) ;
#166 = VECTOR ( 'NONE', #43, 1000.000000000000000 ) ;
#167 = EDGE_LOOP ( 'NONE', ( #204, #279, #306, #297 ) ) ;
#168 = CARTESIAN_POINT ( 'NONE',  ( 0.0000000000000000000, 0.0000000000000000000, 0.2000000000000005100 ) ) ;
#169 = AXIS2_PLACEMENT_3D ( 'NONE', #102, #78, #53 ) ;
#170 = DIRECTION ( 'NONE',  ( 0.0000000000000000000, 0.0000000000000000000, 1.000000000000000000 ) ) ;
#171 = FACE_OUTER_BOUND ( 'NONE', #87, .T. ) ;
#172 = CARTESIAN_POINT ( 'NONE',  ( -9.875000000000000000, 0.0000000000000000000, 0.2000000000000005100 ) ) ;
#173 = DIRECTION ( 'NONE',  ( 0.0000000000000000000, 0.0000000000000000000, 1.000000000000000000 ) ) ;
#174 = DIRECTION ( 'NONE',  ( 1.000000000000000000, 0.0000000000000000000, 0.0000000000000000000 ) ) ;
#175 = CARTESIAN_POINT ( 'NONE',  ( -7.349999999999999600, 0.0000000000000000000, 4.099999999999999600 ) ) ;
#176 = CONICAL_SURFACE ( 'NONE', #64, 9.875000000000000000, 0.7853981633974526100 ) ;
#177 = CARTESIAN_POINT ( 'NONE',  ( 7.349999999999999600, 9.001153973733045600E-016, 4.099999999999999600 ) ) ;
#178 = ORIENTED_EDGE ( 'NONE', *, *, #55, .F. ) ;
#179 = STYLED_ITEM ( 'NONE', ( #85 ), #118 ) ;
#180 = EDGE_CURVE ( 'NONE', #253, #26, #280, .T. ) ;
#181 = PRODUCT_DEFINITION ( 'UNKNOWN', '', #287, #86 ) ;
#182 = APPLICATION_CONTEXT ( 'automotive_design' ) ;
#183 = UNCERTAINTY_MEASURE_WITH_UNIT (LENGTH_MEASURE( 1.000000000000000100E-005 ), #205, 'distance_accuracy_value', 'NONE');
#184 = FILL_AREA_STYLE_COLOUR ( '', #89 ) ;
#185 = VECTOR ( 'NONE', #128, 1000.000000000000100 ) ;
#186 = CARTESIAN_POINT ( 'NONE',  ( -7.349999999999999600, 0.0000000000000000000, 0.0000000000000000000 ) ) ;
#187 =( GEOMETRIC_REPRESENTATION_CONTEXT ( 3 ) GLOBAL_UNCERTAINTY_ASSIGNED_CONTEXT ( ( #183 ) ) GLOBAL_UNIT_ASSIGNED_CONTEXT ( ( #205, #275, #31 ) ) REPRESENTATION_CONTEXT ( 'NONE', 'WORKASPACE' ) );
#188 = DIRECTION ( 'NONE',  ( -0.0000000000000000000, -0.0000000000000000000, 1.000000000000000000 ) ) ;
#189 = CYLINDRICAL_SURFACE ( 'NONE', #126, 9.875000000000000000 ) ;
#190 = DIRECTION ( 'NONE',  ( -0.0000000000000000000, -0.0000000000000000000, 1.000000000000000000 ) ) ;
#191 = CIRCLE ( 'NONE', #301, 9.675000000000002500 ) ;
#192 = EDGE_LOOP ( 'NONE', ( #165, #106 ) ) ;
#193 = UNCERTAINTY_MEASURE_WITH_UNIT (LENGTH_MEASURE( 1.000000000000000100E-005 ), #129, 'distance_accuracy_value', 'NONE');
#194 = EDGE_CURVE ( 'NONE', #26, #253, #40, .T. ) ;
#195 = CARTESIAN_POINT ( 'NONE',  ( 0.0000000000000000000, 0.0000000000000000000, 3.900000000000005700 ) ) ;
#196 = CYLINDRICAL_SURFACE ( 'NONE', #19, 9.875000000000000000 ) ;
#197 = ORIENTED_EDGE ( 'NONE', *, *, #307, .F. ) ;
#198 = DIRECTION ( 'NONE',  ( -0.0000000000000000000, -0.0000000000000000000, -1.000000000000000000 ) ) ;
#199 = SURFACE_STYLE_FILL_AREA ( #249 ) ;
#200 = FACE_BOUND ( 'NONE', #120, .T. ) ;
#201 = DIRECTION ( 'NONE',  ( 0.0000000000000000000, 0.0000000000000000000, -1.000000000000000000 ) ) ;
#202 = DIRECTION ( 'NONE',  ( 0.0000000000000000000, 0.0000000000000000000, 1.000000000000000000 ) ) ;
#203 = ORIENTED_EDGE ( 'NONE', *, *, #307, .T. ) ;
#204 = ORIENTED_EDGE ( 'NONE', *, *, #8, .F. ) ;
#205 =( LENGTH_UNIT ( ) NAMED_UNIT ( * ) SI_UNIT ( .MILLI., .METRE. ) );
#206 = EDGE_LOOP ( 'NONE', ( #291, #241, #197, #256 ) ) ;
#207 = AXIS2_PLACEMENT_3D ( 'NONE', #147, #201, #313 ) ;
#208 = EDGE_CURVE ( 'NONE', #111, #253, #157, .T. ) ;
#209 = VECTOR ( 'NONE', #108, 1000.000000000000000 ) ;
#210 = DIRECTION ( 'NONE',  ( 0.7071067811865505700, 0.0000000000000000000, 0.7071067811865444600 ) ) ;
#211 = ORIENTED_EDGE ( 'NONE', *, *, #238, .T. ) ;
#212 = DIRECTION ( 'NONE',  ( -1.000000000000000000, 0.0000000000000000000, 0.0000000000000000000 ) ) ;
#213 = ORIENTED_EDGE ( 'NONE', *, *, #13, .F. ) ;
#214 = EDGE_CURVE ( 'NONE', #59, #263, #33, .T. ) ;
#215 = ORIENTED_EDGE ( 'NONE', *, *, #258, .F. ) ;
#216 = ADVANCED_FACE ( 'NONE', ( #49 ), #299, .T. ) ;
#217 = DIRECTION ( 'NONE',  ( 1.000000000000000000, 0.0000000000000000000, 0.0000000000000000000 ) ) ;
#218 = DIRECTION ( 'NONE',  ( 0.0000000000000000000, 0.0000000000000000000, 1.000000000000000000 ) ) ;
#219 = SURFACE_STYLE_FILL_AREA ( #222 ) ;
#220 = LINE ( 'NONE', #271, #185 ) ;
#221 = PLANE ( 'NONE',  #70 ) ;
#222 = FILL_AREA_STYLE ('',( #155 ) ) ;
#223 = AXIS2_PLACEMENT_3D ( 'NONE', #45, #266, #50 ) ;
#224 = VERTEX_POINT ( 'NONE', #172 ) ;
#225 = CLOSED_SHELL ( 'NONE', ( #42, #39, #117, #112, #88, #141, #145, #282, #262, #216 ) ) ;
#226 = DIRECTION ( 'NONE',  ( -0.0000000000000000000, -0.0000000000000000000, 1.000000000000000000 ) ) ;
#227 = SURFACE_SIDE_STYLE ('',( #219 ) ) ;
#228 = CARTESIAN_POINT ( 'NONE',  ( -9.674999999999997200, 1.197092246166537600E-015, 0.0000000000000000000 ) ) ;
#229 = FACE_OUTER_BOUND ( 'NONE', #158, .T. ) ;
#230 = EDGE_LOOP ( 'NONE', ( #79, #25, #52, #73 ) ) ;
#231 = EDGE_CURVE ( 'NONE', #44, #312, #133, .T. ) ;
#232 = FACE_OUTER_BOUND ( 'NONE', #298, .T. ) ;
#233 = MECHANICAL_DESIGN_GEOMETRIC_PRESENTATION_REPRESENTATION (  '', ( #179 ), #250 ) ;
#234 = DIRECTION ( 'NONE',  ( 1.000000000000000000, 0.0000000000000000000, 0.0000000000000000000 ) ) ;
#235 = EDGE_LOOP ( 'NONE', ( #281, #14, #154, #69 ) ) ;
#236 = DIRECTION ( 'NONE',  ( 0.0000000000000000000, 0.0000000000000000000, 1.000000000000000000 ) ) ;
#237 = AXIS2_PLACEMENT_3D ( 'NONE', #46, #97, #174 ) ;
#238 = EDGE_CURVE ( 'NONE', #259, #304, #61, .T. ) ;
#239 = CARTESIAN_POINT ( 'NONE',  ( 0.0000000000000000000, 0.0000000000000000000, 4.099999999999999600 ) ) ;
#240 = CARTESIAN_POINT ( 'NONE',  ( 0.0000000000000000000, 0.0000000000000000000, 0.0000000000000000000 ) ) ;
#241 = ORIENTED_EDGE ( 'NONE', *, *, #55, .T. ) ;
#242 = VERTEX_POINT ( 'NONE', #177 ) ;
#243 = CARTESIAN_POINT ( 'NONE',  ( 0.0000000000000000000, 0.0000000000000000000, 0.0000000000000000000 ) ) ;
#244 = CARTESIAN_POINT ( 'NONE',  ( 0.0000000000000000000, 0.0000000000000000000, 4.099999999999999600 ) ) ;
#245 = AXIS2_PLACEMENT_3D ( 'NONE', #239, #236, #303 ) ;
#246 = DIRECTION ( 'NONE',  ( 0.0000000000000000000, 0.0000000000000000000, 1.000000000000000000 ) ) ;
#247 =( NAMED_UNIT ( * ) SI_UNIT ( $, .STERADIAN. ) SOLID_ANGLE_UNIT ( ) );
#248 = PRESENTATION_STYLE_ASSIGNMENT (( #151 ) ) ;
#249 = FILL_AREA_STYLE ('',( #184 ) ) ;
#250 =( GEOMETRIC_REPRESENTATION_CONTEXT ( 3 ) GLOBAL_UNCERTAINTY_ASSIGNED_CONTEXT ( ( #135 ) ) GLOBAL_UNIT_ASSIGNED_CONTEXT ( ( #294, #77, #247 ) ) REPRESENTATION_CONTEXT ( 'NONE', 'WORKASPACE' ) );
#251 = VECTOR ( 'NONE', #198, 1000.000000000000000 ) ;
#252 = ORIENTED_EDGE ( 'NONE', *, *, #144, .T. ) ;
#253 = VERTEX_POINT ( 'NONE', #186 ) ;
#254 = DIRECTION ( 'NONE',  ( 1.000000000000000000, 0.0000000000000000000, 0.0000000000000000000 ) ) ;
#255 = VECTOR ( 'NONE', #116, 1000.000000000000000 ) ;
#256 = ORIENTED_EDGE ( 'NONE', *, *, #76, .F. ) ;
#257 =( GEOMETRIC_REPRESENTATION_CONTEXT ( 3 ) GLOBAL_UNCERTAINTY_ASSIGNED_CONTEXT ( ( #193 ) ) GLOBAL_UNIT_ASSIGNED_CONTEXT ( ( #129, #5, #104 ) ) REPRESENTATION_CONTEXT ( 'NONE', 'WORKASPACE' ) );
#258 = EDGE_CURVE ( 'NONE', #111, #242, #142, .T. ) ;
#259 = VERTEX_POINT ( 'NONE', #125 ) ;
#260 = ORIENTED_EDGE ( 'NONE', *, *, #28, .T. ) ;
#261 = DIRECTION ( 'NONE',  ( 0.0000000000000000000, 0.0000000000000000000, 1.000000000000000000 ) ) ;
#262 = ADVANCED_FACE ( 'NONE', ( #119 ), #113, .T. ) ;
#263 = VERTEX_POINT ( 'NONE', #228 ) ;
#264 = CARTESIAN_POINT ( 'NONE',  ( -9.875000000000000000, 0.0000000000000000000, 4.099999999999999600 ) ) ;
#265 = AXIS2_PLACEMENT_3D ( 'NONE', #290, #148, #314 ) ;
#266 = DIRECTION ( 'NONE',  ( -0.0000000000000000000, -0.0000000000000000000, -1.000000000000000000 ) ) ;
#267 = DIRECTION ( 'NONE',  ( 1.000000000000000000, 0.0000000000000000000, -0.0000000000000000000 ) ) ;
#268 = PRODUCT_DEFINITION_SHAPE ( 'NONE', 'NONE',  #181 ) ;
#269 = DIRECTION ( 'NONE',  ( 1.000000000000000000, 0.0000000000000000000, -0.0000000000000000000 ) ) ;
#270 = ORIENTED_EDGE ( 'NONE', *, *, #258, .T. ) ;
#271 = CARTESIAN_POINT ( 'NONE',  ( -9.675000000000002500, 0.0000000000000000000, 4.099999999999999600 ) ) ;
#272 = AXIS2_PLACEMENT_3D ( 'NONE', #30, #246, #152 ) ;
#273 = EDGE_CURVE ( 'NONE', #242, #26, #164, .T. ) ;
#274 = AXIS2_PLACEMENT_3D ( 'NONE', #295, #9, #10 ) ;
#275 =( NAMED_UNIT ( * ) PLANE_ANGLE_UNIT ( ) SI_UNIT ( $, .RADIAN. ) );
#276 = AXIS2_PLACEMENT_3D ( 'NONE', #195, #66, #234 ) ;
#277 = FACE_OUTER_BOUND ( 'NONE', #206, .T. ) ;
#278 = CARTESIAN_POINT ( 'NONE',  ( -9.875000000000000000, 0.0000000000000000000, 3.900000000000005700 ) ) ;
#279 = ORIENTED_EDGE ( 'NONE', *, *, #107, .T. ) ;
#280 = CIRCLE ( 'NONE', #7, 7.349999999999999600 ) ;
#281 = ORIENTED_EDGE ( 'NONE', *, *, #273, .F. ) ;
#282 = ADVANCED_FACE ( 'NONE', ( #302 ), #12, .F. ) ;
#283 = CONICAL_SURFACE ( 'NONE', #300, 9.675000000000002500, 0.7853981633974570500 ) ;
#284 = PRESENTATION_LAYER_ASSIGNMENT (  '', '', ( #179 ) ) ;
#285 = CARTESIAN_POINT ( 'NONE',  ( -9.875000000000000000, 1.209338714158011400E-015, 0.2000000000000005100 ) ) ;
#286 = EDGE_CURVE ( 'NONE', #44, #68, #220, .T. ) ;
#287 = PRODUCT_DEFINITION_FORMATION_WITH_SPECIFIED_SOURCE ( 'ANY', '', #47, .NOT_KNOWN. ) ;
#288 = DIRECTION ( 'NONE',  ( 0.0000000000000000000, 0.0000000000000000000, -1.000000000000000000 ) ) ;
#289 = CIRCLE ( 'NONE', #276, 9.875000000000000000 ) ;
#290 = CARTESIAN_POINT ( 'NONE',  ( 0.0000000000000000000, 0.0000000000000000000, 4.099999999999999600 ) ) ;
#291 = ORIENTED_EDGE ( 'NONE', *, *, #127, .F. ) ;
#292 = DIRECTION ( 'NONE',  ( 1.000000000000000000, 0.0000000000000000000, 0.0000000000000000000 ) ) ;
#293 = CARTESIAN_POINT ( 'NONE',  ( 9.675000000000002500, 1.197092246166537600E-015, 4.099999999999999600 ) ) ;
#294 =( LENGTH_UNIT ( ) NAMED_UNIT ( * ) SI_UNIT ( .MILLI., .METRE. ) );
#295 = CARTESIAN_POINT ( 'NONE',  ( 0.0000000000000000000, 0.0000000000000000000, 0.0000000000000000000 ) ) ;
#296 = DIRECTION ( 'NONE',  ( 1.000000000000000000, 0.0000000000000000000, 0.0000000000000000000 ) ) ;
#297 = ORIENTED_EDGE ( 'NONE', *, *, #286, .F. ) ;
#298 = EDGE_LOOP ( 'NONE', ( #270, #63, #99, #91 ) ) ;
#299 = CONICAL_SURFACE ( 'NONE', #207, 9.675000000000002500, 0.7853981633974570500 ) ;
#300 = AXIS2_PLACEMENT_3D ( 'NONE', #16, #38, #212 ) ;
#301 = AXIS2_PLACEMENT_3D ( 'NONE', #140, #261, #109 ) ;
#302 = FACE_OUTER_BOUND ( 'NONE', #235, .T. ) ;
#303 = DIRECTION ( 'NONE',  ( 1.000000000000000000, 0.0000000000000000000, 0.0000000000000000000 ) ) ;
#304 = VERTEX_POINT ( 'NONE', #105 ) ;
#305 = LINE ( 'NONE', #285, #209 ) ;
#306 = ORIENTED_EDGE ( 'NONE', *, *, #144, .F. ) ;
#307 = EDGE_CURVE ( 'NONE', #304, #224, #57, .T. ) ;
#308 = MANIFOLD_SOLID_BREP ( 'Fase1', #225 ) ;
#309 = CARTESIAN_POINT ( 'NONE',  ( 9.875000000000000000, 0.0000000000000000000, 0.2000000000000005100 ) ) ;
#310 = CIRCLE ( 'NONE', #237, 9.674999999999997200 ) ;
#311 = DIRECTION ( 'NONE',  ( -1.000000000000000000, 0.0000000000000000000, 0.0000000000000000000 ) ) ;
#312 = VERTEX_POINT ( 'NONE', #293 ) ;
#313 = DIRECTION ( 'NONE',  ( -1.000000000000000000, 0.0000000000000000000, 0.0000000000000000000 ) ) ;
#314 = DIRECTION ( 'NONE',  ( -1.000000000000000000, 0.0000000000000000000, 0.0000000000000000000 ) ) ;
ENDSEC;
END-ISO-10303-21;
