ISO-10303-21;
HEADER;
FILE_DESCRIPTION (( 'STEP AP214' ),
    '1' );
FILE_NAME ('Magnetring_MR38xx.STEP',
    '2017-04-27T07:42:53',
    ( '' ),
    ( '' ),
    'SwSTEP 2.0',
    'SolidWorks 2016',
    '' );
FILE_SCHEMA (( 'AUTOMOTIVE_DESIGN' ));
ENDSEC;

DATA;
#1 = PRODUCT_RELATED_PRODUCT_CATEGORY ( 'part', '', ( #274 ) ) ;
#2 = ORIENTED_EDGE ( 'NONE', *, *, #114, .F. ) ;
#3 = ADVANCED_FACE ( 'NONE', ( #272 ), #292, .F. ) ;
#4 = SURFACE_STYLE_USAGE ( .BOTH. , #23 ) ;
#5 = DIRECTION ( 'NONE',  ( -0.0000000000000000000, -0.0000000000000000000, -1.000000000000000000 ) ) ;
#6 = CIRCLE ( 'NONE', #249, 15.00000000000000000 ) ;
#7 = VERTEX_POINT ( 'NONE', #158 ) ;
#8 = AXIS2_PLACEMENT_3D ( 'NONE', #197, #143, #171 ) ;
#9 = PLANE ( 'NONE',  #276 ) ;
#10 = UNCERTAINTY_MEASURE_WITH_UNIT (LENGTH_MEASURE( 1.000000000000000100E-005 ), #117, 'distance_accuracy_value', 'NONE');
#11 = DIRECTION ( 'NONE',  ( 1.000000000000000000, 0.0000000000000000000, 0.0000000000000000000 ) ) ;
#12 = ORIENTED_EDGE ( 'NONE', *, *, #229, .T. ) ;
#13 = EDGE_CURVE ( 'NONE', #101, #211, #65, .T. ) ;
#14 = ORIENTED_EDGE ( 'NONE', *, *, #81, .T. ) ;
#15 = VERTEX_POINT ( 'NONE', #64 ) ;
#16 = APPLICATION_CONTEXT ( 'automotive_design' ) ;
#17 = DIRECTION ( 'NONE',  ( 0.0000000000000000000, 0.0000000000000000000, 1.000000000000000000 ) ) ;
#18 = VERTEX_POINT ( 'NONE', #66 ) ;
#19 = DIRECTION ( 'NONE',  ( 1.000000000000000000, 0.0000000000000000000, -0.0000000000000000000 ) ) ;
#20 = AXIS2_PLACEMENT_3D ( 'NONE', #69, #166, #240 ) ;
#21 = SHAPE_DEFINITION_REPRESENTATION ( #77, #177 ) ;
#22 = ORIENTED_EDGE ( 'NONE', *, *, #248, .T. ) ;
#23 = SURFACE_SIDE_STYLE ('',( #91 ) ) ;
#24 = CARTESIAN_POINT ( 'NONE',  ( -19.00000000000000000, 0.0000000000000000000, 6.100000000000040500 ) ) ;
#25 = LINE ( 'NONE', #243, #213 ) ;
#26 = CIRCLE ( 'NONE', #290, 19.00000000000000000 ) ;
#27 = DIRECTION ( 'NONE',  ( 0.0000000000000000000, 0.0000000000000000000, -1.000000000000000000 ) ) ;
#28 = EDGE_CURVE ( 'NONE', #302, #18, #54, .T. ) ;
#29 = CARTESIAN_POINT ( 'NONE',  ( 0.0000000000000000000, 0.0000000000000000000, 0.4000000000000149000 ) ) ;
#30 = EDGE_LOOP ( 'NONE', ( #173, #297, #255, #110 ) ) ;
#31 = PRESENTATION_LAYER_ASSIGNMENT (  '', '', ( #217 ) ) ;
#32 = CARTESIAN_POINT ( 'NONE',  ( -18.59999999999998000, 2.302335982397022700E-015, 0.0000000000000000000 ) ) ;
#33 = APPLICATION_PROTOCOL_DEFINITION ( 'draft international standard', 'automotive_design', 1998, #237 ) ;
#34 = ORIENTED_EDGE ( 'NONE', *, *, #298, .T. ) ;
#35 =( NAMED_UNIT ( * ) SI_UNIT ( $, .STERADIAN. ) SOLID_ANGLE_UNIT ( ) );
#36 = DIRECTION ( 'NONE',  ( -0.0000000000000000000, -0.0000000000000000000, 1.000000000000000000 ) ) ;
#37 = ADVANCED_FACE ( 'NONE', ( #254 ), #79, .F. ) ;
#38 = DIRECTION ( 'NONE',  ( -0.7071067811865444600, 0.0000000000000000000, -0.7071067811865505700 ) ) ;
#39 = DIRECTION ( 'NONE',  ( -0.0000000000000000000, -0.0000000000000000000, -1.000000000000000000 ) ) ;
#40 = DIRECTION ( 'NONE',  ( 0.0000000000000000000, 0.0000000000000000000, -1.000000000000000000 ) ) ;
#41 = CARTESIAN_POINT ( 'NONE',  ( 18.60000000000004400, 2.302335982397026600E-015, 6.500000000000000000 ) ) ;
#42 = EDGE_CURVE ( 'NONE', #195, #302, #121, .T. ) ;
#43 = CARTESIAN_POINT ( 'NONE',  ( 0.0000000000000000000, 0.0000000000000000000, 6.500000000000000000 ) ) ;
#44 =( NAMED_UNIT ( * ) PLANE_ANGLE_UNIT ( ) SI_UNIT ( $, .RADIAN. ) );
#45 = SURFACE_STYLE_FILL_AREA ( #307 ) ;
#46 = EDGE_LOOP ( 'NONE', ( #92, #104, #209, #163 ) ) ;
#47 = CARTESIAN_POINT ( 'NONE',  ( 0.0000000000000000000, 0.0000000000000000000, 6.500000000000000000 ) ) ;
#48 = CARTESIAN_POINT ( 'NONE',  ( 15.00000000000000000, 1.836970198721029200E-015, 6.500000000000000000 ) ) ;
#49 = EDGE_LOOP ( 'NONE', ( #22, #85, #80, #74 ) ) ;
#50 = EDGE_LOOP ( 'NONE', ( #231, #34 ) ) ;
#51 = EDGE_LOOP ( 'NONE', ( #235, #275, #225, #119 ) ) ;
#52 = AXIS2_PLACEMENT_3D ( 'NONE', #122, #204, #179 ) ;
#53 = CIRCLE ( 'NONE', #164, 18.60000000000004400 ) ;
#54 = LINE ( 'NONE', #111, #132 ) ;
#55 =( LENGTH_UNIT ( ) NAMED_UNIT ( * ) SI_UNIT ( .MILLI., .METRE. ) );
#56 = FILL_AREA_STYLE_COLOUR ( '', #98 ) ;
#57 = LINE ( 'NONE', #188, #247 ) ;
#58 = ORIENTED_EDGE ( 'NONE', *, *, #313, .T. ) ;
#59 = EDGE_CURVE ( 'NONE', #7, #282, #203, .T. ) ;
#60 = FACE_OUTER_BOUND ( 'NONE', #50, .T. ) ;
#61 = AXIS2_PLACEMENT_3D ( 'NONE', #86, #283, #156 ) ;
#62 = SURFACE_STYLE_USAGE ( .BOTH. , #260 ) ;
#63 =( NAMED_UNIT ( * ) PLANE_ANGLE_UNIT ( ) SI_UNIT ( $, .RADIAN. ) );
#64 = CARTESIAN_POINT ( 'NONE',  ( -18.60000000000004400, 0.0000000000000000000, 6.500000000000000000 ) ) ;
#65 = LINE ( 'NONE', #90, #245 ) ;
#66 = CARTESIAN_POINT ( 'NONE',  ( -15.00000000000000000, 0.0000000000000000000, 0.0000000000000000000 ) ) ;
#67 = AXIS2_PLACEMENT_3D ( 'NONE', #286, #17, #310 ) ;
#68 = CARTESIAN_POINT ( 'NONE',  ( -15.00000000000000000, 0.0000000000000000000, 6.500000000000000000 ) ) ;
#69 = CARTESIAN_POINT ( 'NONE',  ( 0.0000000000000000000, 0.0000000000000000000, 0.4000000000000149000 ) ) ;
#70 = CARTESIAN_POINT ( 'NONE',  ( 0.0000000000000000000, 0.0000000000000000000, 6.100000000000040500 ) ) ;
#71 = EDGE_LOOP ( 'NONE', ( #105, #185, #264, #2 ) ) ;
#72 = EDGE_LOOP ( 'NONE', ( #293, #162 ) ) ;
#73 = CARTESIAN_POINT ( 'NONE',  ( 18.60000000000004400, 2.277843046414082700E-015, 6.500000000000000000 ) ) ;
#74 = ORIENTED_EDGE ( 'NONE', *, *, #28, .F. ) ;
#75 = ADVANCED_FACE ( 'NONE', ( #178, #109 ), #303, .F. ) ;
#76 = DIRECTION ( 'NONE',  ( 1.000000000000000000, 0.0000000000000000000, -0.0000000000000000000 ) ) ;
#77 = PRODUCT_DEFINITION_SHAPE ( 'NONE', 'NONE',  #202 ) ;
#78 = CYLINDRICAL_SURFACE ( 'NONE', #258, 19.00000000000000000 ) ;
#79 = CYLINDRICAL_SURFACE ( 'NONE', #155, 15.00000000000000000 ) ;
#80 = ORIENTED_EDGE ( 'NONE', *, *, #313, .F. ) ;
#81 = EDGE_CURVE ( 'NONE', #136, #221, #26, .T. ) ;
#82 = DIRECTION ( 'NONE',  ( 1.000000000000000000, 0.0000000000000000000, 0.0000000000000000000 ) ) ;
#83 = AXIS2_PLACEMENT_3D ( 'NONE', #159, #285, #308 ) ;
#84 = ORIENTED_EDGE ( 'NONE', *, *, #125, .F. ) ;
#85 = ORIENTED_EDGE ( 'NONE', *, *, #154, .T. ) ;
#86 = CARTESIAN_POINT ( 'NONE',  ( 0.0000000000000000000, 0.0000000000000000000, 0.0000000000000000000 ) ) ;
#87 = CIRCLE ( 'NONE', #127, 18.60000000000004400 ) ;
#88 = APPLICATION_PROTOCOL_DEFINITION ( 'draft international standard', 'automotive_design', 1998, #16 ) ;
#89 = DIRECTION ( 'NONE',  ( 1.000000000000000000, 0.0000000000000000000, 0.0000000000000000000 ) ) ;
#90 = CARTESIAN_POINT ( 'NONE',  ( -19.00000000000000000, 2.326828918379971000E-015, 0.4000000000000149000 ) ) ;
#91 = SURFACE_STYLE_FILL_AREA ( #146 ) ;
#92 = ORIENTED_EDGE ( 'NONE', *, *, #99, .F. ) ;
#93 = AXIS2_PLACEMENT_3D ( 'NONE', #135, #309, #238 ) ;
#94 = CARTESIAN_POINT ( 'NONE',  ( 19.00000000000000000, 2.326828918379970600E-015, 0.4000000000000149000 ) ) ;
#95 = DIRECTION ( 'NONE',  ( -0.0000000000000000000, -0.0000000000000000000, -1.000000000000000000 ) ) ;
#96 = DIRECTION ( 'NONE',  ( 1.000000000000000000, 0.0000000000000000000, 0.0000000000000000000 ) ) ;
#97 = DIRECTION ( 'NONE',  ( 0.0000000000000000000, 0.0000000000000000000, 1.000000000000000000 ) ) ;
#98 = COLOUR_RGB ( '',0.5019607843137254800, 0.5019607843137254800, 0.5019607843137254800 ) ;
#99 = EDGE_CURVE ( 'NONE', #311, #136, #144, .T. ) ;
#100 = AXIS2_PLACEMENT_3D ( 'NONE', #191, #36, #89 ) ;
#101 = VERTEX_POINT ( 'NONE', #32 ) ;
#102 = ORIENTED_EDGE ( 'NONE', *, *, #216, .T. ) ;
#103 = ADVANCED_FACE ( 'NONE', ( #190 ), #161, .T. ) ;
#104 = ORIENTED_EDGE ( 'NONE', *, *, #226, .F. ) ;
#105 = ORIENTED_EDGE ( 'NONE', *, *, #298, .F. ) ;
#106 = DIRECTION ( 'NONE',  ( -0.0000000000000000000, -0.0000000000000000000, 1.000000000000000000 ) ) ;
#107 = CIRCLE ( 'NONE', #100, 19.00000000000000000 ) ;
#108 = VECTOR ( 'NONE', #294, 1000.000000000000000 ) ;
#109 = FACE_BOUND ( 'NONE', #129, .T. ) ;
#110 = ORIENTED_EDGE ( 'NONE', *, *, #174, .F. ) ;
#111 = CARTESIAN_POINT ( 'NONE',  ( -15.00000000000000000, 0.0000000000000000000, 6.500000000000000000 ) ) ;
#112 = DIRECTION ( 'NONE',  ( 1.000000000000000000, 0.0000000000000000000, 0.0000000000000000000 ) ) ;
#113 = CARTESIAN_POINT ( 'NONE',  ( 0.0000000000000000000, 0.0000000000000000000, 0.4000000000000149000 ) ) ;
#114 = EDGE_CURVE ( 'NONE', #15, #221, #57, .T. ) ;
#115 = ORIENTED_EDGE ( 'NONE', *, *, #210, .F. ) ;
#116 = MECHANICAL_DESIGN_GEOMETRIC_PRESENTATION_REPRESENTATION (  '', ( #181 ), #232 ) ;
#117 =( LENGTH_UNIT ( ) NAMED_UNIT ( * ) SI_UNIT ( .MILLI., .METRE. ) );
#118 = CONICAL_SURFACE ( 'NONE', #147, 18.60000000000004400, 0.7853981633974439500 ) ;
#119 = ORIENTED_EDGE ( 'NONE', *, *, #59, .F. ) ;
#120 = AXIS2_PLACEMENT_3D ( 'NONE', #244, #97, #208 ) ;
#121 = CIRCLE ( 'NONE', #120, 15.00000000000000000 ) ;
#122 = CARTESIAN_POINT ( 'NONE',  ( 0.0000000000000000000, 0.0000000000000000000, 0.0000000000000000000 ) ) ;
#123 = CIRCLE ( 'NONE', #67, 15.00000000000000000 ) ;
#124 = VERTEX_POINT ( 'NONE', #138 ) ;
#125 = EDGE_CURVE ( 'NONE', #7, #101, #176, .T. ) ;
#126 = PRODUCT_DEFINITION_CONTEXT ( 'detailed design', #16, 'design' ) ;
#127 = AXIS2_PLACEMENT_3D ( 'NONE', #189, #131, #112 ) ;
#128 = CONICAL_SURFACE ( 'NONE', #20, 19.00000000000000000, 0.7853981633974526100 ) ;
#129 = EDGE_LOOP ( 'NONE', ( #58, #133 ) ) ;
#130 = PRODUCT_CONTEXT ( 'NONE', #237, 'mechanical' ) ;
#131 = DIRECTION ( 'NONE',  ( 0.0000000000000000000, 0.0000000000000000000, 1.000000000000000000 ) ) ;
#132 = VECTOR ( 'NONE', #39, 1000.000000000000000 ) ;
#133 = ORIENTED_EDGE ( 'NONE', *, *, #174, .T. ) ;
#134 = ADVANCED_FACE ( 'NONE', ( #201 ), #291, .T. ) ;
#135 = CARTESIAN_POINT ( 'NONE',  ( 0.0000000000000000000, 0.0000000000000000000, 6.500000000000000000 ) ) ;
#136 = VERTEX_POINT ( 'NONE', #246 ) ;
#137 = DIRECTION ( 'NONE',  ( -1.000000000000000000, 0.0000000000000000000, 0.0000000000000000000 ) ) ;
#138 = CARTESIAN_POINT ( 'NONE',  ( 15.00000000000000000, 1.836970198721029200E-015, 0.0000000000000000000 ) ) ;
#139 = DIRECTION ( 'NONE',  ( -0.0000000000000000000, -0.0000000000000000000, -1.000000000000000000 ) ) ;
#140 = AXIS2_PLACEMENT_3D ( 'NONE', #192, #215, #19 ) ;
#141 = CARTESIAN_POINT ( 'NONE',  ( 0.0000000000000000000, 0.0000000000000000000, 6.500000000000000000 ) ) ;
#142 = DIRECTION ( 'NONE',  ( 0.7071067811865444600, 8.659560562354895900E-017, -0.7071067811865505700 ) ) ;
#143 = DIRECTION ( 'NONE',  ( -0.0000000000000000000, -0.0000000000000000000, -1.000000000000000000 ) ) ;
#144 = LINE ( 'NONE', #73, #301 ) ;
#145 = EDGE_CURVE ( 'NONE', #221, #136, #299, .T. ) ;
#146 = FILL_AREA_STYLE ('',( #56 ) ) ;
#147 = AXIS2_PLACEMENT_3D ( 'NONE', #141, #40, #137 ) ;
#148 = VECTOR ( 'NONE', #139, 1000.000000000000000 ) ;
#149 = ORIENTED_EDGE ( 'NONE', *, *, #160, .F. ) ;
#150 = CARTESIAN_POINT ( 'NONE',  ( 0.0000000000000000000, 0.0000000000000000000, 0.0000000000000000000 ) ) ;
#151 = FACE_OUTER_BOUND ( 'NONE', #251, .T. ) ;
#152 = DIRECTION ( 'NONE',  ( -1.000000000000000000, 0.0000000000000000000, 0.0000000000000000000 ) ) ;
#153 = FACE_OUTER_BOUND ( 'NONE', #71, .T. ) ;
#154 = EDGE_CURVE ( 'NONE', #195, #124, #296, .T. ) ;
#155 = AXIS2_PLACEMENT_3D ( 'NONE', #180, #279, #152 ) ;
#156 = DIRECTION ( 'NONE',  ( 1.000000000000000000, 0.0000000000000000000, 0.0000000000000000000 ) ) ;
#157 = ADVANCED_FACE ( 'NONE', ( #257 ), #78, .T. ) ;
#158 = CARTESIAN_POINT ( 'NONE',  ( 18.59999999999998000, 0.0000000000000000000, 0.0000000000000000000 ) ) ;
#159 = CARTESIAN_POINT ( 'NONE',  ( 0.0000000000000000000, 0.0000000000000000000, 6.500000000000000000 ) ) ;
#160 = EDGE_CURVE ( 'NONE', #211, #282, #234, .T. ) ;
#161 = CONICAL_SURFACE ( 'NONE', #304, 19.00000000000000000, 0.7853981633974526100 ) ;
#162 = ORIENTED_EDGE ( 'NONE', *, *, #42, .F. ) ;
#163 = ORIENTED_EDGE ( 'NONE', *, *, #81, .F. ) ;
#164 = AXIS2_PLACEMENT_3D ( 'NONE', #43, #314, #193 ) ;
#165 = DIRECTION ( 'NONE',  ( 0.0000000000000000000, 0.0000000000000000000, 1.000000000000000000 ) ) ;
#166 = DIRECTION ( 'NONE',  ( -0.0000000000000000000, -0.0000000000000000000, 1.000000000000000000 ) ) ;
#167 = PRESENTATION_STYLE_ASSIGNMENT (( #4 ) ) ;
#168 = ORIENTED_EDGE ( 'NONE', *, *, #59, .T. ) ;
#169 = EDGE_LOOP ( 'NONE', ( #288, #268, #12, #207 ) ) ;
#170 = ADVANCED_FACE ( 'NONE', ( #60, #206 ), #9, .T. ) ;
#171 = DIRECTION ( 'NONE',  ( 1.000000000000000000, 0.0000000000000000000, 0.0000000000000000000 ) ) ;
#172 = CARTESIAN_POINT ( 'NONE',  ( 0.0000000000000000000, 0.0000000000000000000, 6.100000000000040500 ) ) ;
#173 = ORIENTED_EDGE ( 'NONE', *, *, #154, .F. ) ;
#174 = EDGE_CURVE ( 'NONE', #124, #18, #230, .T. ) ;
#175 = AXIS2_PLACEMENT_3D ( 'NONE', #172, #27, #199 ) ;
#176 = CIRCLE ( 'NONE', #8, 18.59999999999998000 ) ;
#177 = ADVANCED_BREP_SHAPE_REPRESENTATION ( 'Magnetring_MR38xx', ( #187, #61 ), #184 ) ;
#178 = FACE_OUTER_BOUND ( 'NONE', #218, .T. ) ;
#179 = DIRECTION ( 'NONE',  ( 1.000000000000000000, 0.0000000000000000000, 0.0000000000000000000 ) ) ;
#180 = CARTESIAN_POINT ( 'NONE',  ( 0.0000000000000000000, 0.0000000000000000000, 6.500000000000000000 ) ) ;
#181 = STYLED_ITEM ( 'NONE', ( #167 ), #187 ) ;
#182 = DIRECTION ( 'NONE',  ( 1.000000000000000000, 0.0000000000000000000, 0.0000000000000000000 ) ) ;
#183 = DIRECTION ( 'NONE',  ( -1.000000000000000000, 0.0000000000000000000, 0.0000000000000000000 ) ) ;
#184 =( GEOMETRIC_REPRESENTATION_CONTEXT ( 3 ) GLOBAL_UNCERTAINTY_ASSIGNED_CONTEXT ( ( #223 ) ) GLOBAL_UNIT_ASSIGNED_CONTEXT ( ( #55, #259, #35 ) ) REPRESENTATION_CONTEXT ( 'NONE', 'WORKASPACE' ) );
#185 = ORIENTED_EDGE ( 'NONE', *, *, #99, .T. ) ;
#186 = FILL_AREA_STYLE_COLOUR ( '', #256 ) ;
#187 = MANIFOLD_SOLID_BREP ( 'Fase1', #306 ) ;
#188 = CARTESIAN_POINT ( 'NONE',  ( -18.60000000000004400, 0.0000000000000000000, 6.500000000000000000 ) ) ;
#189 = CARTESIAN_POINT ( 'NONE',  ( 0.0000000000000000000, 0.0000000000000000000, 6.500000000000000000 ) ) ;
#190 = FACE_OUTER_BOUND ( 'NONE', #51, .T. ) ;
#191 = CARTESIAN_POINT ( 'NONE',  ( 0.0000000000000000000, 0.0000000000000000000, 0.4000000000000149000 ) ) ;
#192 = CARTESIAN_POINT ( 'NONE',  ( 0.0000000000000000000, 0.0000000000000000000, 0.0000000000000000000 ) ) ;
#193 = DIRECTION ( 'NONE',  ( 1.000000000000000000, 0.0000000000000000000, 0.0000000000000000000 ) ) ;
#194 = AXIS2_PLACEMENT_3D ( 'NONE', #29, #300, #11 ) ;
#195 = VERTEX_POINT ( 'NONE', #267 ) ;
#196 = ADVANCED_FACE ( 'NONE', ( #151 ), #128, .T. ) ;
#197 = CARTESIAN_POINT ( 'NONE',  ( 0.0000000000000000000, 0.0000000000000000000, 0.0000000000000000000 ) ) ;
#198 = LINE ( 'NONE', #239, #148 ) ;
#199 = DIRECTION ( 'NONE',  ( 1.000000000000000000, 0.0000000000000000000, 0.0000000000000000000 ) ) ;
#200 = PRESENTATION_LAYER_ASSIGNMENT (  '', '', ( #181 ) ) ;
#201 = FACE_OUTER_BOUND ( 'NONE', #169, .T. ) ;
#202 = PRODUCT_DEFINITION ( 'UNKNOWN', '', #250, #126 ) ;
#203 = LINE ( 'NONE', #295, #305 ) ;
#204 = DIRECTION ( 'NONE',  ( -0.0000000000000000000, -0.0000000000000000000, -1.000000000000000000 ) ) ;
#205 = DIRECTION ( 'NONE',  ( 0.0000000000000000000, 0.0000000000000000000, 1.000000000000000000 ) ) ;
#206 = FACE_BOUND ( 'NONE', #72, .T. ) ;
#207 = ORIENTED_EDGE ( 'NONE', *, *, #280, .F. ) ;
#208 = DIRECTION ( 'NONE',  ( 1.000000000000000000, 0.0000000000000000000, 0.0000000000000000000 ) ) ;
#209 = ORIENTED_EDGE ( 'NONE', *, *, #114, .T. ) ;
#210 = EDGE_CURVE ( 'NONE', #136, #282, #25, .T. ) ;
#211 = VERTEX_POINT ( 'NONE', #289 ) ;
#212 =( NAMED_UNIT ( * ) SI_UNIT ( $, .STERADIAN. ) SOLID_ANGLE_UNIT ( ) );
#213 = VECTOR ( 'NONE', #95, 1000.000000000000000 ) ;
#214 = DIRECTION ( 'NONE',  ( -0.0000000000000000000, -0.0000000000000000000, -1.000000000000000000 ) ) ;
#215 = DIRECTION ( 'NONE',  ( 0.0000000000000000000, 0.0000000000000000000, 1.000000000000000000 ) ) ;
#216 = EDGE_CURVE ( 'NONE', #101, #7, #261, .T. ) ;
#217 = STYLED_ITEM ( 'NONE', ( #266 ), #177 ) ;
#218 = EDGE_LOOP ( 'NONE', ( #284, #102 ) ) ;
#219 =( NAMED_UNIT ( * ) SI_UNIT ( $, .STERADIAN. ) SOLID_ANGLE_UNIT ( ) );
#220 = MECHANICAL_DESIGN_GEOMETRIC_PRESENTATION_REPRESENTATION (  '', ( #217 ), #233 ) ;
#221 = VERTEX_POINT ( 'NONE', #24 ) ;
#222 = DIRECTION ( 'NONE',  ( -1.000000000000000000, 0.0000000000000000000, 0.0000000000000000000 ) ) ;
#223 = UNCERTAINTY_MEASURE_WITH_UNIT (LENGTH_MEASURE( 1.000000000000000100E-005 ), #55, 'distance_accuracy_value', 'NONE');
#224 = FACE_OUTER_BOUND ( 'NONE', #46, .T. ) ;
#225 = ORIENTED_EDGE ( 'NONE', *, *, #229, .F. ) ;
#226 = EDGE_CURVE ( 'NONE', #15, #311, #87, .T. ) ;
#227 = AXIS2_PLACEMENT_3D ( 'NONE', #47, #5, #222 ) ;
#228 = CARTESIAN_POINT ( 'NONE',  ( 0.0000000000000000000, 0.0000000000000000000, 6.500000000000000000 ) ) ;
#229 = EDGE_CURVE ( 'NONE', #282, #211, #107, .T. ) ;
#230 = CIRCLE ( 'NONE', #241, 15.00000000000000000 ) ;
#231 = ORIENTED_EDGE ( 'NONE', *, *, #226, .T. ) ;
#232 =( GEOMETRIC_REPRESENTATION_CONTEXT ( 3 ) GLOBAL_UNCERTAINTY_ASSIGNED_CONTEXT ( ( #10 ) ) GLOBAL_UNIT_ASSIGNED_CONTEXT ( ( #117, #44, #219 ) ) REPRESENTATION_CONTEXT ( 'NONE', 'WORKASPACE' ) );
#233 =( GEOMETRIC_REPRESENTATION_CONTEXT ( 3 ) GLOBAL_UNCERTAINTY_ASSIGNED_CONTEXT ( ( #270 ) ) GLOBAL_UNIT_ASSIGNED_CONTEXT ( ( #236, #63, #212 ) ) REPRESENTATION_CONTEXT ( 'NONE', 'WORKASPACE' ) );
#234 = CIRCLE ( 'NONE', #194, 19.00000000000000000 ) ;
#235 = ORIENTED_EDGE ( 'NONE', *, *, #216, .F. ) ;
#236 =( LENGTH_UNIT ( ) NAMED_UNIT ( * ) SI_UNIT ( .MILLI., .METRE. ) );
#237 = APPLICATION_CONTEXT ( 'automotive_design' ) ;
#238 = DIRECTION ( 'NONE',  ( -1.000000000000000000, 0.0000000000000000000, 0.0000000000000000000 ) ) ;
#239 = CARTESIAN_POINT ( 'NONE',  ( -19.00000000000000000, 0.0000000000000000000, 6.500000000000000000 ) ) ;
#240 = DIRECTION ( 'NONE',  ( 1.000000000000000000, 0.0000000000000000000, 0.0000000000000000000 ) ) ;
#241 = AXIS2_PLACEMENT_3D ( 'NONE', #150, #278, #252 ) ;
#242 = DIRECTION ( 'NONE',  ( 0.0000000000000000000, 0.0000000000000000000, -1.000000000000000000 ) ) ;
#243 = CARTESIAN_POINT ( 'NONE',  ( 19.00000000000000000, 2.326828918379970600E-015, 6.500000000000000000 ) ) ;
#244 = CARTESIAN_POINT ( 'NONE',  ( 0.0000000000000000000, 0.0000000000000000000, 6.500000000000000000 ) ) ;
#245 = VECTOR ( 'NONE', #265, 1000.000000000000000 ) ;
#246 = CARTESIAN_POINT ( 'NONE',  ( 19.00000000000000000, 2.326828918379970600E-015, 6.100000000000040500 ) ) ;
#247 = VECTOR ( 'NONE', #38, 1000.000000000000000 ) ;
#248 = EDGE_CURVE ( 'NONE', #302, #195, #123, .T. ) ;
#249 = AXIS2_PLACEMENT_3D ( 'NONE', #287, #165, #96 ) ;
#250 = PRODUCT_DEFINITION_FORMATION_WITH_SPECIFIED_SOURCE ( 'ANY', '', #274, .NOT_KNOWN. ) ;
#251 = EDGE_LOOP ( 'NONE', ( #281, #84, #168, #149 ) ) ;
#252 = DIRECTION ( 'NONE',  ( 1.000000000000000000, 0.0000000000000000000, 0.0000000000000000000 ) ) ;
#253 = CONICAL_SURFACE ( 'NONE', #83, 18.60000000000004400, 0.7853981633974439500 ) ;
#254 = FACE_OUTER_BOUND ( 'NONE', #30, .T. ) ;
#255 = ORIENTED_EDGE ( 'NONE', *, *, #28, .T. ) ;
#256 = COLOUR_RGB ( '',0.5019607843137254800, 0.5019607843137254800, 0.5019607843137254800 ) ;
#257 = FACE_OUTER_BOUND ( 'NONE', #263, .T. ) ;
#258 = AXIS2_PLACEMENT_3D ( 'NONE', #271, #214, #183 ) ;
#259 =( NAMED_UNIT ( * ) PLANE_ANGLE_UNIT ( ) SI_UNIT ( $, .RADIAN. ) );
#260 = SURFACE_SIDE_STYLE ('',( #45 ) ) ;
#261 = CIRCLE ( 'NONE', #52, 18.59999999999998000 ) ;
#262 = ADVANCED_FACE ( 'NONE', ( #224 ), #253, .T. ) ;
#263 = EDGE_LOOP ( 'NONE', ( #115, #14, #269, #312 ) ) ;
#264 = ORIENTED_EDGE ( 'NONE', *, *, #145, .F. ) ;
#265 = DIRECTION ( 'NONE',  ( -0.7071067811865505700, 8.659560562354969800E-017, 0.7071067811865444600 ) ) ;
#266 = PRESENTATION_STYLE_ASSIGNMENT (( #62 ) ) ;
#267 = CARTESIAN_POINT ( 'NONE',  ( 15.00000000000000000, 1.836970198721029200E-015, 6.500000000000000000 ) ) ;
#268 = ORIENTED_EDGE ( 'NONE', *, *, #210, .T. ) ;
#269 = ORIENTED_EDGE ( 'NONE', *, *, #280, .T. ) ;
#270 = UNCERTAINTY_MEASURE_WITH_UNIT (LENGTH_MEASURE( 1.000000000000000100E-005 ), #236, 'distance_accuracy_value', 'NONE');
#271 = CARTESIAN_POINT ( 'NONE',  ( 0.0000000000000000000, 0.0000000000000000000, 6.500000000000000000 ) ) ;
#272 = FACE_OUTER_BOUND ( 'NONE', #49, .T. ) ;
#273 = DIRECTION ( 'NONE',  ( 0.7071067811865505700, 0.0000000000000000000, 0.7071067811865444600 ) ) ;
#274 = PRODUCT ( 'Magnetring_MR38xx', 'Magnetring_MR38xx', '', ( #130 ) ) ;
#275 = ORIENTED_EDGE ( 'NONE', *, *, #13, .T. ) ;
#276 = AXIS2_PLACEMENT_3D ( 'NONE', #228, #205, #76 ) ;
#277 = ADVANCED_FACE ( 'NONE', ( #153 ), #118, .T. ) ;
#278 = DIRECTION ( 'NONE',  ( 0.0000000000000000000, 0.0000000000000000000, 1.000000000000000000 ) ) ;
#279 = DIRECTION ( 'NONE',  ( -0.0000000000000000000, -0.0000000000000000000, -1.000000000000000000 ) ) ;
#280 = EDGE_CURVE ( 'NONE', #221, #211, #198, .T. ) ;
#281 = ORIENTED_EDGE ( 'NONE', *, *, #13, .F. ) ;
#282 = VERTEX_POINT ( 'NONE', #94 ) ;
#283 = DIRECTION ( 'NONE',  ( 0.0000000000000000000, 0.0000000000000000000, 1.000000000000000000 ) ) ;
#284 = ORIENTED_EDGE ( 'NONE', *, *, #125, .T. ) ;
#285 = DIRECTION ( 'NONE',  ( 0.0000000000000000000, 0.0000000000000000000, -1.000000000000000000 ) ) ;
#286 = CARTESIAN_POINT ( 'NONE',  ( 0.0000000000000000000, 0.0000000000000000000, 6.500000000000000000 ) ) ;
#287 = CARTESIAN_POINT ( 'NONE',  ( 0.0000000000000000000, 0.0000000000000000000, 0.0000000000000000000 ) ) ;
#288 = ORIENTED_EDGE ( 'NONE', *, *, #145, .T. ) ;
#289 = CARTESIAN_POINT ( 'NONE',  ( -19.00000000000000000, 0.0000000000000000000, 0.4000000000000149000 ) ) ;
#290 = AXIS2_PLACEMENT_3D ( 'NONE', #70, #242, #82 ) ;
#291 = CYLINDRICAL_SURFACE ( 'NONE', #227, 19.00000000000000000 ) ;
#292 = CYLINDRICAL_SURFACE ( 'NONE', #93, 15.00000000000000000 ) ;
#293 = ORIENTED_EDGE ( 'NONE', *, *, #248, .F. ) ;
#294 = DIRECTION ( 'NONE',  ( -0.0000000000000000000, -0.0000000000000000000, -1.000000000000000000 ) ) ;
#295 = CARTESIAN_POINT ( 'NONE',  ( 19.00000000000000000, 0.0000000000000000000, 0.4000000000000149000 ) ) ;
#296 = LINE ( 'NONE', #48, #108 ) ;
#297 = ORIENTED_EDGE ( 'NONE', *, *, #42, .T. ) ;
#298 = EDGE_CURVE ( 'NONE', #311, #15, #53, .T. ) ;
#299 = CIRCLE ( 'NONE', #175, 19.00000000000000000 ) ;
#300 = DIRECTION ( 'NONE',  ( -0.0000000000000000000, -0.0000000000000000000, 1.000000000000000000 ) ) ;
#301 = VECTOR ( 'NONE', #142, 1000.000000000000000 ) ;
#302 = VERTEX_POINT ( 'NONE', #68 ) ;
#303 = PLANE ( 'NONE',  #140 ) ;
#304 = AXIS2_PLACEMENT_3D ( 'NONE', #113, #106, #182 ) ;
#305 = VECTOR ( 'NONE', #273, 1000.000000000000000 ) ;
#306 = CLOSED_SHELL ( 'NONE', ( #277, #103, #3, #134, #170, #75, #157, #37, #196, #262 ) ) ;
#307 = FILL_AREA_STYLE ('',( #186 ) ) ;
#308 = DIRECTION ( 'NONE',  ( -1.000000000000000000, 0.0000000000000000000, 0.0000000000000000000 ) ) ;
#309 = DIRECTION ( 'NONE',  ( -0.0000000000000000000, -0.0000000000000000000, -1.000000000000000000 ) ) ;
#310 = DIRECTION ( 'NONE',  ( 1.000000000000000000, 0.0000000000000000000, 0.0000000000000000000 ) ) ;
#311 = VERTEX_POINT ( 'NONE', #41 ) ;
#312 = ORIENTED_EDGE ( 'NONE', *, *, #160, .T. ) ;
#313 = EDGE_CURVE ( 'NONE', #18, #124, #6, .T. ) ;
#314 = DIRECTION ( 'NONE',  ( 0.0000000000000000000, 0.0000000000000000000, 1.000000000000000000 ) ) ;
ENDSEC;
END-ISO-10303-21;
